Bistarai Bistarai

Posted: फ्रेवुअरी 28, 2014 in Rohit John Chhetri
Verse 1: 
E                 B               A                  B
 Bistarai bistarai dubdai chhu timro maya ko sagar mah ma
 E                       B               A                      B
 Dukha aasu sabai birsera ramna chahanxu timro nyano angalo mah ma
 E                              B              A                    B 
 Khula pakha fijai aakash mah udeko chari jhai mukta huna chahanxu ma 
                E        B      A         E                   
 Timro maya mah, maa aaahh, dubna chahanxu, timro maya mah
 B         A        E
 Ramna chahanxu maaaa..... [2x]
Solo Part[Guitar]:

e:|------------------------------|---------------------------|
B:|----12-12-10-9-7---7-7/9-10-9-|--12-12-10-9-7---7-7/9-7-0-|
G:|---9-------------9------------|-9-------------9-----------|
D:|------------------------------|---------------------------|
A:|------------------------------|---------------------------|
E:|------------------------------|---------------------------|

e:|----------------------------------------|-9/12-11-7-7/9-16-16-|
B:|-0--------------------------11/12-12--9-|---------------------|
G:|--6-8/9-11-11/13\11-11--9-9---------11--|---------------------|
D:|----------------------------------------|---------------------|
A:|----------------------------------------|---------------------|
E:|----------------------------------------|---------------------|

e:|----------------------------------|-11/12-12---------------------|
B:|----------------------11/12-12--9-|----------12/14-12-12-9\7-7---|
G:|---9-11-11/13-13--9-9---------11--|----------------------------9-|
D:|-11-------------------------------|------------------------------|
A:|----------------------------------|------------------------------|
E:|----------------------------------|------------------------------|

Verse 2:
C#m B E C#m B E
Sahara bani deu timi mero khusi bani deuu

C#m B E C#m B E
Sahara bani deu timi mero khusi bani deuu

Chorus:
G#m A B E
Andhakar ko ujyali juneli raat ko junn timi mero bani deu
G#m A B E
Andhakar ko ujyali juneli raat ko junn timi mero bani deu

G#m A B E
Andhakar ko ujyali juneli raat ko junn timi mero bani deu
G#m A B E B E
Andhakar ko ujyali juneli raat ko junn timi mero bani deu

Outro:
E B A B
Sustari sustari gaaundai xa yo mann le geet timrai naam ko

E B A
Bistarai Bistarai
E B A
Sustari Sustari….[2x]

जवाफ लेख्नुहोस्

Fill in your details below or click an icon to log in:

WordPress.com Logo

You are commenting using your WordPress.com account. Log Out / Change )

Twitter picture

You are commenting using your Twitter account. Log Out / Change )

Facebook photo

You are commenting using your Facebook account. Log Out / Change )

Google+ photo

You are commenting using your Google+ account. Log Out / Change )